LearnGospelMusic.com Community

Please login or register.
Pages: [1]   Go Down

Author Topic: Teen Town  (Read 2362 times)

Offline djgroovin

  • LGM Member
  • *****
  • Posts: 521
  • Gender: Male

Teen Town
« on: July 17, 2006, 10:09:54 PM »
I tabbed this out over the last 2 days.  I'm trying to play it clean.  It might be hard if you don't know the song.  Jaco is so fast so this may be a little advanced.

RED = horns
BLUE = sustained note



|------------|-----5---3-----------------2--------------2----------------|
|------------|---------------5------2-5----5-3------------4-------------|
|------------|---3---3---3----3-5--------------5-4-----------2---2-----|
|------------|-------------------------------------------------------------|


|-------------------------------5-7-8-9------------------|
|--------------------3---5-6-7-----------9-7-9---------|
|------------3-5-3---------------------------------5-5--|
|---1---4-5-----------5----------------------------------|


|-------------------|------------------------------|----------------------|
|--------5---------|------------7-----------------|----------------------|
|---5-7----5--5---|---------------9-------7-----|----5-5-3-----------|
|-------------------|---7-8-9--------9-7-----9--|--------------11--|


|----------------------------------------------|-------------------------------|---9-7-5-7-7-5----------|
|-----------2-3-4----5-6-7------------------|-----------------------7-6-5-|---------------------3-----|
|---3-4-5-----------------------6-5-3-------|--0-2-3-4--5-6-7-----------|---------------------------|
|-----------------------------------------5----|------------------------------|---------------------------|

     
|------------------------------17-17--|-------------------------------2--------------|
|---5-7-10-(10)-12------------------|----------------------------2----4-----------|
|---------------------------------------|--------------------3-5-3----------5-4-2---|
|---------------------------------------|-------3-(3)-5-3----------------------------|

               
|--------------------------------|--------12-14-17-17---||
|-----5-3-----------------------|--------------------------||
|------------5--4---------------|--------------------------||
|--------------------1-2-3-----|---------------------------||

Offline Willie L. Terry Jr

  • LGM Member
  • *****
  • Posts: 323
  • Gender: Male

Re: Teen Town
« Reply #1 on: July 18, 2006, 07:30:46 PM »
When I get a chance...Imma have to break out my Jaco library and figure this one out.


What's been up man?


T.J.
Psalms 144:1  Blessed be the Lord my rock who teaches my hands to war and my FINGAZ to fight!

Offline MikeGee

  • LGM Royalty
  • LGM Member
  • *****
  • Posts: 2508
  • Gender: Male
  • My wife is over my right shoulder.
    • my out of church band

Re: Teen Town
« Reply #2 on: July 21, 2006, 05:20:15 AM »
DJ, did you tab this yourself, I am scared of you, I ain't plsying either.

Offline djgroovin

  • LGM Member
  • *****
  • Posts: 521
  • Gender: Male

Re: Teen Town
« Reply #3 on: July 23, 2006, 11:24:50 PM »
LOL, yeah I tabbed it...but that doesn't mean I can play it like Jaco.
Pages: [1]   Go Up